RSS
¬ы не зарегистрированы –егистраци€ | ѕоиск | ¬ойти

‘орум гитаристов

«адать новую тему
јвтор
“ема: арпеджио
¬рем€: 02.11.2007 18:16 

гитара

народ можете кто-нибудь выложить пару красивых арпеджио в гит про?
јвтор
“ема: Re: арпеджио
¬рем€: 02.11.2007 18:22 



малмстина кинул из-за того что у него в названии арпеджио написано :4:
јвтор
“ема: Re: арпеджио
¬рем€: 02.11.2007 18:23 



http://www.guitarplayer.ru/school/pash/tapping.html
пива suka хочетьсќ!
јвтор
“ема: Re: арпеджио
¬рем€: 02.11.2007 18:25 

гитара

не ну чо нить попроще)))))
јвтор
“ема: Re: арпеджио
¬рем€: 02.11.2007 18:28 

гитара

www.udaloff.com/video/himik.avi можно что - нибудь типа этого?
јвтор
“ема: Re: арпеджио
¬рем€: 02.11.2007 18:28 
ћосква
Ѕез гитары

ѕрикреплена тема "√де качать табы" там должно быть! :idea2:
Ћюблю повеселитьс€!... особенно поесть :golod06:
јвтор
“ема: Re: арпеджио
¬рем€: 02.11.2007 18:30 

гитара

ну вот € ссыль скинул есть что нибудь типа этого?
јвтор
“ема: Re: арпеджио
¬рем€: 02.11.2007 18:44 
—анкт-ѕетербург
√итара, вокал, бас-гитара

|----------------0---------------------|
|-------------0-----0-----------------|
|----------0-----------0--------------|
|-------2-----------------2-----------|
|----2-----------------------2--------|
|-0-----------------------------0-----|
—колько людей, столько и мнений, но половина фогума упертые ######ы
јвтор
“ема: Re: арпеджио
¬рем€: 02.11.2007 19:29 
Moscow
Gibson Flying V Gothic

> |----------------0--------------------|
> |-------------0-----0-----------------|
> |----------0-----------0--------------|
> |-------2-----------------2-----------|
> |----2-----------------------2--------|
> |-0-----------------------------0-----|
:idea2:
јвтор
“ема: Re: арпеджио
¬рем€: 02.11.2007 19:40 



|----0-----0------0-------0-------и т.д.|
|----1-----1------1-------1-------и т.д.|
|----2-----2------2-------2-------и т.д.|
|-------2-------------2-------------и т.д.|
|-0------------0--------------------и т.д.|
|------------------------------------и т.д.|

:idea2:
¬обще надоело блин.≈сть поиск ,где это обсуждалось не раз ,есть одтельна€ тема в шапке где все ссылки и упражнени€...
каков ты на флуде, таков и в постели © ѕадла
јвтор
“ема: Re: арпеджио
¬рем€: 02.11.2007 20:26 



>|----------------0---------------------|
> |-------------0-----0-----------------|
> |----------0-----------0--------------|
> |-------2-----------------2-----------|
> |----2-----------------------2--------|
> |-0-----------------------------0-----|


:lol:

лучше

|----------------0-------------------
--|
|-------------0-----0-----------------|
|----------0-----------0--------------|
|-------0-----------------0-----------|
|----2-----------------------2--------|
|-0-----------------------------0-----|
¬ этот форум могут писать только зарегистрированные пользователи!