RSS
¬ы не зарегистрированы –егистраци€ | ѕоиск | ¬ойти

‘орум гитаристов

«адать новую тему
јвтор
“ема: –итм - штрих
¬рем€: 07.02.2008 17:47 
ћосква
Jackson

¬от никогда не думал, что придетс€ задавать подобные вопросы здесь, однако нужна ваша помощь :)

ƒан ритмический рисунок - темп 126.
ƒл€ простоты посмотрим на первый такт. ¬от какой тут должен быть штрих: отрывистый с акцентом всех квинт на удар медиатора вниз, а мьютинг, соответственно, вверх; или строго чесать правой рукой шестнадцатыми переменный штрих, но пропуска€ удар по струнам в местах, где паузы между нотами??
Ќадеюсь, вы пон€ли, о чем €...
јвтор
“ема: Re: –итм - штрих
¬рем€: 07.02.2008 17:49 



я нику€ не пон€л.
јвтор
“ема: Re: –итм - штрих
¬рем€: 07.02.2008 17:51 
ћосква
Jackson

>я нику€ не пон€л.

Ќу вот смотри.  ак бы ты сыграл первый такт: все сильные шестнадцатые ударом вниз, а слабые - вверх? »ли по-другому?
јвтор
“ема: Re: –итм - штрих
¬рем€: 07.02.2008 17:55 
Glaðsheimr
Gungner

я пон€л. “ам по ма€тнику играть надо, если хочешь распишу штрих :4: :death:
јвтор
“ема: Re: –итм - штрих
¬рем€: 07.02.2008 17:57 
ћосква
Jackson

>я пон€л. “ам по ма€тнику играть надо, если хочешь распишу штрих

Ќу давай. “олько причем здесь детх, так и не пон€л :)
јвтор
“ема: Re: –итм - штрих
¬рем€: 07.02.2008 17:59 
Glaðsheimr
Gungner

ƒа € так) Ќу погодь тода... печатать табы быстро не умею :idea2:
јвтор
“ема: Re: –итм - штрих
¬рем€: 07.02.2008 17:59 
ћинск
♪♫ ...

ј кака€ разница? »грай так, как написано.
"¬се-таки тоже не €сно когда лучше...  огда в голове песок или, когда вакуум..." (—)D7
јвтор
“ема: Re: –итм - штрих
¬рем€: 07.02.2008 18:00 



 ак Smoke On The Water вступление играешь, —верху вниз и прижимаешь ладонью. ѕопробуй, так легче чем чЄ-то придумывать.
јвтор
“ема: Re: –итм - штрих
¬рем€: 07.02.2008 18:03 
ћосква
Jackson

> ак Smoke On The Water вступление играешь, —верху вниз и прижимаешь ладонью. ѕопробуй, так легче чем чЄ-то придумывать.

ƒа смоук он зе вотэ, в принципе, без разницы, как играть - там достаточно медленно и щтрих не имеет значени€. ƒа и не помню €, как € еЄ играл :)


>ј кака€ разница? »грай так, как написано.

¬ том-то и дело, что как написано можно по-разному сыграть.
јвтор
“ема: Re: –итм - штрих
¬рем€: 07.02.2008 18:20 
Glaðsheimr
Gungner

----5------x--5-------x--5-----------x--3-------3-
-------x--x-
----5------x--5-------x--5----------
-x--3-------3--------x--x-
----3------x--3-------
x--3-----------x--1-------1--------x--x-
^ ^ v v ^ v ^ ^ ^ v

-5---------x--5-------x--5--------3--------3--
------3--x--3--x
-3---------x--3-------x--3------
--3--------3-------
x--3-----------x--1-------1--------x--x-
3--x--3--x
-----------x----------x-----------1---
-----1--------1--x--1--x

--3--------3-------
x--3-----------x--1-------1--------x--x-
^ ^ v v ^ ^ ^ ^ v ^ v
јвтор
“ема: Re: –итм - штрих
¬рем€: 07.02.2008 18:21 
Glaðsheimr
Gungner

»тттттиииить :7: :7: :7: :7:
јвтор
“ема: Re: –итм - штрих
¬рем€: 07.02.2008 18:23 
Glaðsheimr
Gungner

Ѕлин, незнаю почему так запостилось :4: ≈сли еще надо - стукни мне в асю, € тебе нормальный таб пришлю - 484129890
јвтор
“ема: Re: –итм - штрих
¬рем€: 07.02.2008 18:25 
ћосква
Jackson

>Ѕлин, незнаю почему так запостилось ≈сли еще надо - стукни мне в асю, € тебе нормальный таб пришлю - 484129890

через часок, ок? ”хожу
јвтор
“ема: Re: –итм - штрих
¬рем€: 07.02.2008 18:58 
Underway


ќк раз на то пошло у мен€ тоже вопрос: Norther - Everything

http://ultimate-guitar.com/tabs/n/norther/everything_guitar_pro.htm

(интересует та часть, где на 5-й и 6-й. ѕривожу ее ниже)

E E E E E E E E E E E E E E E E
--------------------------|---------------------
-----|
--------------------------|---------------
-----------|
--------------------------|---------
-----------------|
--------------5-----------|--4
-----------7--------5--|
-----------------------7
--|--------------------------|
--0--0--0--0-----0
--0-----|-----0--0--0-----0--0-----|


E E E E E E E E E E E E E E E E
--------------------------|---------------------
-----|
--------------------------|---------------
-----------|
--------------------------|---------
-----------------|
--4-----------5-----------|--4
--------------------7--|
-----------------------7
--|--------------------------|
-----0--0--0-----0
--0-----|-----0--0--0--0--0--0-----|

 ак там играетс€ рифф - весь строго переменным ведь?

«џ:  ак квинты/кварты глушить? я еще понимаю когда 6-€ или 5-€ - легко делаетс€. Ќо когда квинты, то ребро должно лежать у бриджа, но как тогда ебашить то по струнам:

PM PM PM PM
E E E E E E E E E E E E E E E E
D||--------------------------|------------------
--------|
A||--------------------------|---------
-----------------|
F||--------------------------|
--------------------------|
C||--2--2--2--2--5--5
--5--5--|--4--4--4--4--7--7--7--7--|
G||--2--2--2
--2--------------|--------------------------|
D||
--0--0--0--0--------------|-----------------------
---|
јвтор
“ема: Re: –итм - штрих
¬рем€: 07.02.2008 18:59 
Underway


####ец, ну сделайте уже тут разметку моноширным шрифтом черт побери.
јвтор
“ема: Re: –итм - штрих
¬рем€: 07.02.2008 19:03 
Bite my shiny metal
A$$

RR

лично € б все играл ударом вниз, а где ноты-керстики вверх
Shiftuya shit
јвтор
“ема: Re: –итм - штрих
¬рем€: 07.02.2008 19:07 
Glaðsheimr
Gungner

>RR
>
>лично € б все играл ударом вниз, а где ноты-керстики вверх

Ќу и... глупый ты :-)
јвтор
“ема: Re: –итм - штрих
¬рем€: 07.02.2008 19:10 
ћосква
CME, Eventide, AKAI

>лично € б все играл ударом вниз, а где ноты-керстики вверх

Ѕл€, это вообще как? :ouch:
No use for a signature
јвтор
“ема: Re: –итм - штрих
¬рем€: 07.02.2008 19:33 
ћосква
Jackson

—пасибо ѕитбулю.
¬ общем, € разобралс€ - тему можно сносить.
јвтор
“ема: Re: –итм - штрих
¬рем€: 08.02.2008 05:50 



>>я нику€ не пон€л.
>
>Ќу вот смотри.  ак бы ты сыграл первый такт: все сильные шестнадцатые ударом вниз, а слабые - вверх? »ли по-другому?


Ѕлин, надо всегда играть переменным штрихом, это просто и пон€тно. –ука работает как ма€тник "вверх-вниз" Ќ≈ ќ—“јЌј¬Ћ»¬јя—№ ¬ ѕј”«ј’, а на нужные доли просто бьет по струнам в том направлении, в котором в данный момент движетс€. ѕо сути играешь ты левой рукой, а права€ - это просто нека€ машинка дл€ звукоизвлечени€, котора€ работает независимо от того, пауза в данный момент звучит или нота.


’от€ есть исключени€...




...но эта хрень, котора€ очевидно в стиле ћ≈“јјјЋ, к ним не относитс€.
¬ этот форум могут писать только зарегистрированные пользователи!